1. Welcome to the forums! Take a second to look at our Beginner's Guide. It contains the information necessary for you to have an easier experience here.

    Thanks and have fun. -NF staff
    Dismiss Notice

Does anybody have the Bleach Going Home guitar tab?

Discussion in 'Konoha Recycling Heap' started by Sikibrada, Oct 6, 2006.

  1. Sikibrada

    Messages:
    63
    Likes Received:
    0
    Trophy Points:
    6
    Joined:
    Aug 3, 2006
    Reputation:
    Plz. I need help. Anybody?

    PS: don't negrep me:huh
     
    Tags:
  2. Oskar von Reuental

    Messages:
    4,151
    Likes Received:
    0
    Trophy Points:
    311
    Joined:
    Jun 4, 2005
    Reputation:
    Spoiler:
    Part A
    Dm7 C/Bb C/A Cdim Gmadd9
    E|-------------------------------------------3------5-6-5-6----|
    B|-5--6--5--6--(5)-5-3--------5---4-------6-------3------------|
    G|-5--5--5--5-----5------5---5---5----5----------3-------------|
    D|----7-----7----5------5---5---4---------------5--------------|
    A|-8-----8-----------------------------------------------------|
    E|--------------6------5---------------------------------------|

    Aaug Dm7 Dbm7 Cm7 F13(b9)
    |-------5----3--------------------------------------------10---|
    |-----6--------------6---6----5------5--4------4-----7---------|
    |---6---------------5---5-------(4)4----3--(3)3-----8----------|
    |------------------3---3-------6--------5-5--------7-----------|
    |-----------------5-----------4---------3---------8------------|
    |-5------------------------------------------------------------|

    Bbmaj7 F/A Dm7
    |--------5-6-5-6--------5----------3--------5--5-----5/6---5/6-|
    |-----6---------------6---------6----------3--------(3)---(3)--|
    |----7--------------5--------------------------5-----5---------|
    |---7------------------------------------3----------(3)--------|
    |---------------------------------------5------5---------------|
    |-6---------------5--------------------------------------------|

    G9add13 C7sus4
    |--------5------------------------3------------------3---------|
    |-------5----3--2h3---6---------6---------6----6----6----------|
    |------4--------------3---3---3----------(3)---3---3-----------|
    |(3)-----------------------------------3-----3-3--3------------|
    |----------------------------------------------3---------------|
    |----3----------------3----------------------------------------|

    Part A
    Fmaj9 Dm7 C/Bb C/A Cdim Gmadd9
    E|-----------------------------------------3----5-6-5-6--------|
    B|----5--6--5--6--(5)-5-3-------5---4----6-----3---------------|
    G|---5---5--5--5-----5------5--5---5-5--------3----------------|
    D|--5----7--5--7----5------5--5---4----------5-----------------|
    A|-8-----------------------------5-----------------------------|
    E|-----------------6------5------------------------------------|

    Aaug Dm7 Dbm7 Cm7 F13(b9)
    |--------5----3------------------------------------------10----|
    |------6----------6--------6---------6--------------7----------|
    |-----6---------------------------------3----------8-----------|
    |--------------------7-----6---6-----5------------7------------|
    |-----------------5--------4---------3-----------8-------------|
    |-5------------------------------------------------------------|

    Bbmaj7 F/A Dm7
    |--------5-6-5-6--------5----------3--------5--6-----5---6-----|
    |-----6---------------6---------6--------------6--------(3)----|
    |----7--------------5---------------------5--------------------|
    |---7------------------------------------3---------------------|
    |---------------------------------------5----------------------|
    |-6---------------5--------------------------------------------|


    G9/13 C7sus4 Bb/C C C11
    |--------5--------------------3---3---3--------------------------------------8-|
    |-------5----3--2h3---6-----6----6---6---6--3----3-5-----5-----6----6---7------|
    |------4--------------3---3-----3---3---3---3--3---5---5----------7----6-------|
    |(3)---------------------3-----3---3---3------3------5-------8---8----8--------|
    |-------------------------------------------3------3--------7------------------|
    |----3----------------3------------------------------------8---------8---------|

    Part B
    Bbm7 Eb7(b9) Abmaj7 Fadd9sus
    |-----------6--------------------6---------------------3-4-6-3-------3-----3--1|
    |---6--8--9---6----------6--8-9-----6-----5--(4)----4---------------------1----|
    |---6--6--6---6---(6)---6-----------6----6--------5---------------(3)---1------|
    |----------------6-----6----------------5--------5---------------3-------------|
    |---------------------6-------------6--6------------------------3--------------|
    |---6---------6-------------------------------4----------------1---------------|

    B7add13 Bbm7 Gm6/9add11
    |---------------------------------6-----------8---6---------5-----5--3------3--|
    |-------9-------6-----6--6--8--9-----6-----6-------------3------3-3--3----3----|
    |-----8--------6----6----6--6--6-----6---6--------------3-----3---------3------|
    |---7---------6---6--------------------6---------------------------------------|
    |------------8-----------------------6-----------------------------------------|
    |-/7--------6------------6----------------------------3------------------------|
    C13(b9)
    |----------5-------5---------5---|
    |--------3------3-------2--------|
    |------3-----3---------3---------|
    |----5----------------2----------|
    |--3-----------------3-----------|
    |--------------------------------| --> Back to part A

    Ending part
    Dbmaj7 Eb7sus2 Fmaj7 F
    |-4-------4--------6-----8---6----------------------1-3-5--8~~------13|
    |-------6------6-------6-------9-8--6----1--------1---------------10--|
    |-----5------5-------6------------------2-(2)---2---------------10----|
    |-6-6------6-------8-------------------2------2-----------------------|
    |-4----------------6--------------------------------------------------|
    |-------------------------------------1-------------------------------|
     
  3. Sikibrada

    Messages:
    63
    Likes Received:
    0
    Trophy Points:
    6
    Joined:
    Aug 3, 2006
    Reputation:
    Thank you very much. Although I can play going home without this. Except for 1 chord:mad i could't figure out. Thanx
     
  4. Azure Ihrat Retired Staff

    Messages:
    23,509
    Likes Received:
    2,112
    Trophy Points:
    3,084
    Joined:
    Oct 1, 2005
    Thanks, Jaime Lannister! :D

    Question answered; recycling.
     
Loading...